Yüksek Sadakat - Kafile
Zorluk: Kolay Version: 1 Kapo: 0 İçerik: Akor
Tranpose
E|--------------------------------------------------------------------------
B|--------------------------------------------------------------------------
G|--------------------------------------7-9---------------------------------
D|------------------9---9------9---9-10--------9---9-----9------------------
A|--222--222------7---7------7---7-----------7---7-----7---7--10-9-8--7-----
E|--000--000----0-----------------------------------------------------------
   p.m. p.m.
 
E|--------------------------------------------------------------------------
B|--------------------------------------------------------------------------
G|----------------------------7-9-------------------------------------------
D|--------9---9------9---9-10-------9---9-----------------------------------
A|------7---7------7---7--------------7------7-10-7-9----8~-----------------
E|----0----------0------------------------------------10--------------------
 
Em               Am
Bendeki bu ateş sönmeden
Em                      Am
Mevsim yazdan hazana dönmeden
Em                   Am
Gözlerine uykular inmeden
C                      D            Em
Göğsüne yatır beni, düşlere götür beni
 
E|--------------------------------------------------------------------------
B|--------------------------------------------------------------------------
G|----------------------------7-9-------------------------------------------
D|--------9---9------9---9-10-------9---9-----------------------------------
A|------7---7------7---7----------7---7--------7-10-7-9----8-7--------------
E|----0-------------------------------------------------10------------------
 
Em                     Am
Aşk bu cana benden hak ise
Em                  Am
Can ne cami çeker ne kilise
Em                       Am
Ten sönmeden bitmez bu hadise
C
Beni yanlış anlama
D
Şikayetim yok ama
C
Ben aşkı böyle bildim
D
Gel merhem ol yarama
 
Em                     D
Ben hem kalp hem bedenim
Bm         C      D
Nefestir ruhum benim
Em         D
Aşk şarabı içelim
Bm        C     D
Tez gelsede ecelim
Em                     D
Ben hem kalp hem bedenim
Bm         C      D
Ateşten ruhum benim
Em         D
Aşk şarabı içelim
Bm        C     D   Em
Kendimizden gecelim  off...
 
E|--------------------------------------------------------------------------
B|--------------------------------------------------------------------------
G|------------------------------7-9-----------------------------------------
D|----------9---9------9---9-10--------9---9-----9--------------------------
A|--------7---7------7---7-----------7---7-----7---7--10-9-8-7--------------
E|-----0--------------------------------------------------------------------
 
Em                     Am
Bir ömür böyle geçmez ah ile
Em                     Am
Ağlasan da gülsen de nafile
Em                      Am
Sen dursan da yürür bu kafile
C
Beni yanlış anlama
D
Şikayetim yok ama
C
Ben aşkı böyle bildim
D
Gel merhem ol yarama
 
Em                     D       )
Ben hem kalp hem bedenim       )
Bm         C      D            )
Nefestir ruhum benim           )
Em         D                   )
Aşk şarabı içelim              )
Bm        C     D              )
Tez gelsede ecelim             )
Em                     D       )  X 2
Ben hem kalp hem bedenim       )
Bm         C      D            )
Ateşten ruhum benim            )
Em         D                   )
Aşk şarabı içelim              )
Bm        C     D              )
Kendimizden gecelim            )
 
solo;
Em D Bm C D X4
 
Tekrar Nak.
 
soN;
 
E|--------------------------------------------------------------------------
B|--------------------------------------------------------------------------
G|--------------------------7-9---------------------------------------------
D|------9---9------9---9-10---------9--9----9-------------------------------
A|----7---7------7---7------------7--7----7---7----10-9-8--7----------------
E|--0-----------------------------------------------------------------------
 
E|--------------------------------------------------------------------------
B|--------------------------------------------------------------------------
G|----------------------------7-9----------------------------9--------------
D|--------9---9------9---9-10-------9---9--------------------9--------------
A|------7---7------7---7--------------7--------7-10-7-9----8-7--------------
E|---------------0--------------------------------------10------------------
-