The Godfather - Tab
Zorluk: Kolay Version: 1 Kapo: 0 İçerik: Akor
Tranpose
-------------------------------------------
B---0--5--8--7--5--8--5--7--5--1--3--0------
G-------------------------------------------
D-------------------------------------------
A-------------------------------------------
E------------0-----------0-----------0------




e-------------------------------------------
B---0--5--8--7--5--8--5--7--5--3--1--0--1---
G-------------------------------------------
D-------------------------------------------
A-------------------------------------------
E------------0-----------0--------------0---




e-------------------------------------------
B------1--5--7------------------------------
G---2---------------------0--2--3--5--------
D-------------------------------------------
A-------------------------------------------
E-------------------------------------------




e-------------------------------------------
B---------3--1--0--3--1--1--0--0------------
G------2--------------------------1--2------
D---4---------------------------------------
A-------------------------------------------
E------------0-----------0-----------0------
-