Soner Sarıkabadayı - Tuzlu Su
Zorluk: Kolay Version: 1 Kapo: 0 İçerik: Akor
Tranpose
E----------------------------2X
B--3-1-----------------------2X
G-0-3-2-3-0-3-2-00-----------2X
D----------3-----------------2X
A----------------------------2X
E----------------------------2X

E----------------------------------------------
B----------------------------------------------
G---3-2-3-0-2---------------3-2-3-0-2----------
D-1-----------3-1-311-----1-----------3-1-310--
A----------------------------------------------
E----------------------------------------------



Gm
Tuzlu suyu denize değil gözüme sor
Bir ağladı mı hesabı olmaz, hesabı olmaz
Gm
İnsanoğlu sever günahı
Bozuldu mu izahı olmaz, izahı olmaz

Gm Dm
Kafasına göre ara sıra gülüyor yüzüme, ne diyeyim
F Gm 
Topu topu kaçkere çiziyor gönlüme sen gibisini kaderim

Gm Cm F
Ah İnadım inat dedi bir yüzümü güldürmedi
F Cm Gm
Vah oradan oraya süründürdü öldürmedi
Gm Cm F
Ah İnadım inat dedi bir yüzümü güldürmedi
F Cm Gm
Vah süründürdü süründürdü öldürmedi
-