Redd - Yolunda Gitmeyen Adam
Zorluk: Kolay Version: 1 Kapo: 0 İçerik: Akor
Tranpose
E|---------------------------15------------------
B|----15-17-15------15-17-15----13---17----------
G|-14------------14---------------------12-------
D|-----------------------------------------------
A|-----------------------------------------------
E|-----------------------------------------------
 
F
Kağıttan uçak gibi, atılıp unutulmuştum
C
Sen olmasan çoktan yırtılıp savrulmuştum
F
Şiirler, şarkılar sakıncalı bulunmuştum
C
Aklım direnirken kalbime teslim olmuştum
 
Am               C
Yolunda gitmeyen adamdım
Am              C
Sadece sen bana inandın
 
Am         C          F      Am
Sevişirdik durduğunda bir an zaman
Am         C          F      Am
Savaşırdık döndüğünde siyah dünya
 
F
Kimse bilmeden gizli bir örgüt kurmuştuk
C
Birbirimizi sevmekten suçlu bulunmuştuk
F
Ayrı koğuşlarda aynı suçtan mahkumduk
C
Aramızda duvarlar, yanımızda başka insanlar
 
Am               C
Yolunda gitmeyen adamdım
Am              C
Sadece sen bana inandın
 
Am         C          F       Am
Sevişirdik durduğunda bir an zaman
Am         C          F      Am
Savaşırdık döndüğünde siyah dünya
 
E|---------------------------15------------------
B|----15-17-15------15-17-15----13---17----------
G|-14------------14---------------------12-------
D|-----------------------------------------------
A|-----------------------------------------------
E|-----------------------------------------------
-