Redd - Seni Buldum
Zorluk: Kolay Version: 1 Kapo: 0 İçerik: Akor
Tranpose
A5                             D5
Sana fena halde benziyor güzellik
A5                                D5
Ama aynaya bakma senden biraz çirkin
C5                     A5
En uzak cebe saklanmış bir anahtar gibi
C5                A5
Biraz geç de olsa açacak kapıyı sana
      D5              F5  D5
Sözcükler hazır dudaklarımda
 
    A5        C5
Seni buldum arıyordum
     F5
Kaybetmem bir daha
 
A5                               D5
Beni kendimden geçiriyor güzelliğin
A5                                 D5
Ama sakın uyandırma bırak uyuşsun kalbim
C5                     A5
En uzak şehre yürürken çıplak ayaklarımla
C5                  A5
Gördüğüm her çiçeği topladım yolda
     D5             F5  D5
Sözcükler hazır dudaklarımda
 
    A5        C5
Seni buldum arıyordum
     F5
Kaybetmem bir daha
 
E|-----------------------------------------------
B|-----------------------------------------------
G|---------4--------4-------------4---4-4--------
D|---6-4-6--6-6-4-6--6-6-4--6-4-6--6-6-6-6-4-----
A|-------------------------------------------6-4-
E|-A5---------------------A5---------------------
 
E|-----------------------------------------
B|---4------4-4----------4-----4-4---------
G|--6-6-4--6-6-6-4------6-6-4-6-6-6-4------
D|-------6--------6-4-6------6-------6-4-6-
A|-----------------------------------------
E|-D5--------------------------------------
 
E|-----------------------------------------
B|-----------------------------------------
G|---------4--------4-------------4---4-4--
D|---6-4-6--6-6-4-6--6-6-4--6-4-6--6-6-6-6-
A|-----------------------------------------
E|-A5---------------------A5---------------
 
E|----------------------------------------------------------
B|-8-10-8-10-8----------------------------------------------
G|------------9-7-9-7-9-7-9-7----7-------7-5-7-5-4----------
D|----------------------------10--10-9-7-----------7-7-5----
A|----------------------------------------------------------
E|-------------------------------------------------------A5-
 
    A5        C5
Seni buldum arıyordum
     F5
Kaybetmem bir daha
 
E|---------------------
B|---------------------
G|---------4--------4--
D|---6-4-6--6-6-4-6--6-
A|---------------------
E|-A5------------------
-