Redd - Plastik Çiçekler ve Böcek
Zorluk: Kolay Version: 1 Kapo: 0 İçerik: Akor
Tranpose
İntro:
 
E|---2-2------------2-5-2-------
B|-2----4-------5-2------2----5-
G|--2----5-2-5-----2------2-5---
D|-------------6-------------6--
A|------------------------------
E|------------------------------
 
[A]
 
F#m              C#m
Beton ormanlarda büyüdük
F#m            C#m
Evcilleştik ve bitti özgürlük
A                E
Kozalar ördük ve değiştik içinde
B                  Eb       Eb  Ab
Sahte bir güneş vardı hep bahçemizde..
 
F#m              A
Plastik çiçekler ve böcek
B                 Ab
Bu uyumsuz rüyada hangimiz gerçek
F#m              A
Plastik çiçekler ve böcek
B                   Ab
Bu şekilsiz dünyada önce hangimiz ölecek
 
A        B      F#m
Ah ne kaldı, ne kaldı
    C#m
Ruhumuz parçalandı
 
A        B       F#m
Ah ne kaldı, ne kaldı
     C#m
Hangimiz yabancı
 
E|------------------------------------------------------  )
B|------------------------------------------------------  )
G|-6-8-9-11-13-((-6-8-9-8-9-8-----6-((--6-6-8-6-6-6-8-6-  )
D|----------------------------9-9------6-------6--------  )
A|------------------------------------------------------  )
                                                           
E|------------------------------------------------------  )
B|------------7-9-9-9-12-7-9-7--------------------------  )
G|-1-6-6-8-8-9-----------------6-8-6--------------------  )
D|----------------------------6-----6-9-----------------  )
A|------------------------------------------------------  )
                                                           
E|----------------------------------------------------))- )
B|-----7-9-12-12-14-14-16-12-14-12--------------------))- )
G|--6-8-----------------------------------------------))- )
D|-6------------------------------9-11-11-13-11-9-11-9))- )
A|------------------------------------------------------- )
 
A        B         F#m
Ah ne kaldı, ne kaldı
    C#m
Ruhumuz parçalandı
 
A        B         F#m
Ah ne kaldı, ne kaldı
     C#m
Hangimiz yabancı
 
F#m              A
Plastik çiçekler ve böcek
B                 Ab
Bu uyumsuz rüyada hangimiz gerçek
-