Redd - Özgürlük Sırtından Vurulmuş
Zorluk: Kolay Version: 1 Kapo: 0 İçerik: Akor
Tranpose
Intro:
 
E-------------------------------------------------
B-------------------------------------------------
G------------------------------------------------- (A)
D---5---5---5---5---5---5---5---5---5---5---5---5-
A-8---8---8---8---8---8---8---8---8---8---8---8---
E-------------------------------------------------
 
E-------------------------------------------------
B-3-6-3--------3------3-6-3--------3--------------
G-------5-3-5-5--3----------5-3-5-5--3------------ (B)
D------------------5-3----------------------------
A-------------------------------------------------
E-------------------------------------------------
 
Gm                Bb   Cm              Eb
Bir yer altı filminde küçük bir rolüm var
Gm                Bb  Cm               Eb
Öldürülen bir adamım oysa bir hikayem var
Gm                Bb  Cm                Eb
Siyahlar ve beyazlar herkes için başka doğru var
Gm                 Bb         Cm              Eb
Doğrudan vurulmuş bir adamım oysa yanlışlarım var
 
       Gm        Bb       Eb     Cm        Bb
Ve özgürlük sırtından vurulmuş yerde yatıyordu (x2)
 
   E-------------3-3-----------3-
   B-3-6-3-6-3-6-----6-3-6-3-6---
[A]G----------------------------- [C]
   D-----------------------------
   A-----------------------------
   E-----------------------------
 
Gm                Bb  Eb                Cm
Siyahlar ve beyazlar herkes için başka doğru var
Gm                 Bb         Cm               Eb
Doğrudan vurulmuş bir adamım oysa yanlışlarım var
 
       Gm        Bb       Eb     Cm        Bb
Ve özgürlük sırtından vurulmuş yerde yatıyordu (x2)
 
[A][C]
 
Bb                Gm
Kurşungeçirmez yelekleri vardı
Eb               Bb
Ben çıplak yaşarken
Bb               Gm
Fikrime barut kokusu sokuldu
Eb              Cm Eb
Medeniyeti ararlarken
 
       Gm        Bb       Eb     Cm        Bb
Ve özgürlük sırtından vurulmuş yerde yatıyordu (x2)
 
E-------------------------
B-------6-----------------
G---7-8----0-2-3--0-2-3---
D-------------------------
A-------------------------
E-------------------------
-