Redd - Nefes Bile Almadan
Zorluk: Kolay Version: 2 Kapo: 0 İçerik: Akor
Tranpose
Kelebek kadar   ömrümüz var     Sevmek lazım, hemen başlayalım
Kaybedecek   daha neyimiz var   Aşk için ne gerekiyorsa hepsi bende var...
---7-7--5-------5-5-5-----------5-5-5-5-5---------------------------
---5-5--5-------8-5-6-----------5-5-5-5-5-5-5-----------------------
---5-5--5-------5-5-5-----------5-5-7-7-7-5-5-----------------------
--------------------------------------------------------------------
--------------------------------------------------------------------
--------------------------------------------------------------------
 
Am               G
Nefes bile almadan
Am               G
Nefes bile almadan
Dm               G
Nefes bile almadan
          Am
Seviyorum seni
 
-----7--5---5----------------------------------
----------8---6--5--3-3--5---------------------
-----------------------------------------------
-----------------------------------------------
-----------------------------------------------
-----------------------------------------------(mızıka iyi oluyo)
 
Sarmaşıklar gibi sardın kalbimi
Değiştirdin kanımı koydun zehrini
Örümcek gibi ördün zihnimi
Düşündükce daha çok isterim seni
 
Nefes bile almadan seviyorum seni
 
(üstteki tabın yerlerini biraz değistirin olur)
İçimde dolaşan alkol gibi
Sana gitgide sarhoş oluyorum
Ruhumu kaybetmiş gibi
Sadece senin için yaşıyorum
Nefes bile almadan seviyorum seni
-