Redd - Masal
Zorluk: Kolay Version: 1 Kapo: 0 İçerik: Akor
Tranpose
Intro:
 
1.Gitar
E|----------------------------
B|----------------------------
G|---------------------------- (x4)
D|--3-3-3-3-3-3-3-3-3---------
A|----------------------------
E|-1-1-1-1-1-1-1--------------
 
2.Gitar
E|-3--------------------------
B|---6-4-6--------------------
G|---------3-5---------------- (x12)[A]
D|-------------6--------------
A|----------------------------
E|----------------------------
 
Fm                      Ab
Şu an son kez bakıyorum kendi gözlerimden
C#                   Bbm
Yakında değiştirecekler beni istemeden
Fm                 Ab
Ben mi seçtimki bu oyunu kurallarını seveyim
C#                    Bbm
Bir zar atımı diyordu adam
              Fm               Ab C# Bbm Fm
Belki de önce onu dinlemeliyim..
 
          Ab
Zor inan çok zor
         C#              Bbm
Bu küçük ellerle dünyaya tutunmak
    Fm
Çok zor
 
Tekrar (A x4) / F5 - Ab5 - C#5 - Bb5
 
Fm                     Ab
Gölgesi düşerse ruhuma benden önceki herşeyin
C#                   Bbm
Perde açılmadan önce kendime gelmeliyim
Fm              Ab
Ben mi diktimki bu kostümü neden giyeyim
C#                 Bbm
Hayat başladığı gibi biter
      Fm    Ab - C# - Bbm - Fm
Belki de rolümü boşvermeliyim..
 
          Ab
Zor inan çok zor
         C#              Bbm
Bu küçük ellerle dünyaya tutunmak
    Fm
Çok zor
-