Pentagram - Gündüz Gece
Zorluk: Kolay Version: 1 Kapo: 0 İçerik: Akor
Tranpose
GiRiş

D---------------5-4h-5---------------------------
A--4-5-7--7-7-7----------7----5-0-7-0---8-0-0-8-8-
E-----------------------------3-0-5-0---6-0-0-6-6-

D--------------7-5h-7-4--------------------------
A--4-5-7-7-7-7-------------5-0-7-0--8-0-0-8-8----
E--------------------------3-0-5-0--6-0-0-6-6----
4 KERE GİRİŞ ÇALINDIKTAN SONRA
İntRo soLo

D------------------------------------------------------------------------
A---4-5-7-5-7-7-5-7-----4-5-7-4-5-5-4-5---0-2-4-5-2-2-0-2-------------5--
E-0-------------------0------------------0----------------0-0-2-3-5-0-3--

VE ŞARKIYA GİRİŞ :

A-------------3---3-3-3-3----2-2--------
E-0-0-2-3-5-0-5---1-1-1-1---0-0----------

UZUN İNCE BİR YOLDAYIM / GİDİYORUM GÜNDÜZ GECE

D-9-7-9----7-----------------------------
A-------10---10-9-7-10-7-----------2-2---
E------------------------10-7-7----0-0---

BİLMİYORUM NE HALDEYİM..

D-----4-6----7-----7-----4-----0----------
A-0-0-2-4----5-----4-----2-----2--5---4---
E---------------------------------3---2---

VE GEÇİŞTE METİN TÜRKCANIN PEDAL ŞOVU

G--7-9-9-9--XX--7-9-9-9--7-7-6----7-9-9-9--XX-7-9-9-9-9-12-12-12-
D-----------------------------------------------------------------
A--5-7-7-7--XX--5-7-7-7--5-5-4----5-7-7-7--XX-5-7-7-7-7-10-10-10-
E-----------------------------------------------------------------

G--7-9-9-9--XX--7-9-9-9--7-7-6-----------XX-7-9-9-9-9-9-9-9--2-2
D----------------------------------------------------------------
A--5-7-7-7--XX--5-7-7-7--5-5-4--5-7-7-7--XX-5-7-7-7-7-7-7-7--0-0
E----------------------------------------------------------------

CLEAN TONDA..

D----------------------------------9-7-9--7--------------------------
A--10-12-12-10h-9----10-9----7-7--------10--10-9-7-10-7---------2-2---
E-----------------12------10----------------------------10-7-7--0-0---

D-------------------------------
A-10-12-12-10h-9----10-9----77--
E----------------12------10-----

E----------10----------14-12-10---------------------------------------------
B-12-10-12----13-12-10----------13-12-10-11---12-12-10-----------------------
G-------------------------------------------------------12-11-11-10-11-9-----
D------------------------------------------------------------------------12-9
A----------------------------------------------------------------------------
E----------------------------------------------------------------------------

E---------------------------------------------------------10---10-14-
B---------------------------------------------------12--10--10-------
G-----12------------------------------------11---11---11-------------
D--14----14---14--------------------------12---12--------------------
A-----------15--15-12-15-12-7---9-10-11-12---------------------------
E-----------------------------12-------------------------------------
-