Ogün Sanlısoy - Pencere Full Tab
Zorluk: Kolay Version: 1 Kapo: 0 İçerik: Akor
Tranpose
Günaydın Gözünaydın,Benden Aldın Sende Kaldım
Dün Bunaldım Zor Uyandım Görmeyince Zor Dayandım
(Kız) Günaydın Gözünaydın,Benden Aldın Sende Kaldım
Dün Bunaldım Zor Uyandım Görmeyince Zor Dayandım

1---3333--6----4-------------------
2---3333---------------------------
3----------------------------------
4----------------------------------
5----------------------------------
6----------------------------------

              (A)                      (B)
 | Baktım Olmaz Seyre Daldım | Anılardan Bir Tomardım
              (C)                      (D)
 | Çok Yoruldum Çok Daraldım | Penceremden Gir İçeri

1----------------------------------
2----------------------------------
3-(A)--|--(B)-|-(C)-|-(D)-|--------
4-5----|---5--|--3--|--3--|--------
5-3----|---3--|--1--|--3--|--------
6-------------------|--1--|--------

Penceremden gir içeriiiiiiiiii

1----------------------------------
2----------------------------------
3----------------------------------
4----------3-----------------------
5----55x55-1-6-5-------------------
6----33x33---4-3-------------------

Günaydın Gözünaydın,Benden Aldın Sende Kaldım

1----------------------------------
2----------------------------------
3---------------------------------- 2x
4----------3-----------------------
5----55x55-1-6-5-------------------
6----33x33---4-3-------------------

Dün Bunaldım Zor Uyandım Görmeyince Zor Dayandım

1----------------------------------
2----------------------------------
3---------------------------------- 2x
4----------3-----------------------
5----55x55-1-6-5-------------------
6----33x33---4-3-------------------

(Kız) Günaydın Gözünaydın,Benden Aldın Sende Kaldım

1----------------------------------
2----------------------------------
3---------------------------------- 2x
4----------3-----------------------
5----55x55-1-6-5-------------------
6----33x33---4-3-------------------

Dün Bunaldım Zor Uyandım Görmeyince Zor Dayandım

1----------------------------------
2----------------------------------
3---------------------------------- 2x
4----------3-----------------------
5----55x55-1-6-5-------------------
6----33x33---4-3-------------------

              (A)                      (B)
 | Baktım Olmaz Seyre Daldım | Anılardan Bir Tomardım
              (C)                      (D)
 | Çok Yoruldum Çok Daraldım | Penceremden Gir İçeri

1----------------------------------
2----------------------------------
3-(A)--|--(B)-|-(C)-|-(D)-|--------
4-5----|---5--|--3--|--3--|--------
5-3----|---3--|--1--|--3--|--------
6-------------------|--1--|--------

1----------------------------------
2----------------------------------
3---------------------------------- 2x
4----------3-----------------------
5----55x55-1-6-5-------------------
6----33x33---4-3-------------------

              (A)                      (B)
 | Baktım Olmaz Seyre Daldım | Anılardan Bir Tomardım
              (C)                      (D)
 | Çok Yoruldum Çok Daraldım | Penceremden Gir İçeri

1----------------------------------
2----------------------------------
3-(A)--|--(B)-|-(C)-|-(D)-|--------
4-5----|---5--|--3--|--3--|--------
5-3----|---3--|--1--|--3--|--------
6-------------------|--1--|--------

1----------------------------------
2----------------------------------
3---------------------------------- 2x
4----------3-----------------------
5----55x55-1-6-5-------------------
6----33x33---4-3-------------------

Üzgün Oldum Düzgün Oldum Bir Yüzümle Yüzgöz Oldum

1----------------------------------
2----------------------------------
3---------------------------------- 2x
4----------3-----------------------
5----55x55-1-6-5-------------------
6----33x33---4-3-------------------

Bir Ses Oldum,Bir Söz Oldum Söyleyince Sensiz Oldum

1----------------------------------
2----------------------------------
3---------------------------------- 2x
4----------3-----------------------
5----55x55-1-6-5-------------------
6----33x33---4-3-------------------

              (A)                      (B)
 | Baktım Olmaz Seyre Daldım | Anılardan Bir Tomardım
              (C)                      (D)
 | Çok Yoruldum Çok Daraldım | Penceremden Gir İçeri

1----------------------------------
2----------------------------------
3-(A)--|--(B)-|-(C)-|-(D)-|--------
4-5----|---5--|--3--|--3--|--------
5-3----|---3--|--1--|--3--|--------
6-------------------|--1--|--------

1----------------------------------
2----------------------------------
3---------------------------------- 2x
4----------3-----------------------
5----55x55-1-6-5-------------------
6----33x33---4-3-------------------

              (A)                      (B)
 | Baktım Olmaz Seyre Daldım | Anılardan Bir Tomardım
              (C)                      (D)
 | Çok Yoruldum Çok Daraldım | Penceremden Gir İçeri

1----------------------------------
2----------------------------------
3-(A)--|--(B)-|-(C)-|-(D)-|--------
4-5----|---5--|--3--|--3--|--------
5-3----|---3--|--1--|--3--|--------
6-------------------|--1--|--------

  SOLO BÖLÜMÜ
1----------------------------------
2----------------------------------
3----------------------------------
4----------3-----------------------
5----55x55-1-6-5-------------------
6----33x33---4-3-------------------

1----------------------------------
2----------------------------------
3----------------------------------
4----------------------------------
5----------------------------------
6----------------------------------

              (A)                      (B)
 | Baktım Olmaz Seyre Daldım | Anılardan Bir Tomardım
              (C)                      (D)
 | Çok Yoruldum Çok Daraldım | Penceremden Gir İçeri

1----------------------------------
2----------------------------------
3-(A)--|--(B)-|-(C)-|-(D)-|--------
4-5----|---5--|--3--|--3--|--------
5-3----|---3--|--1--|--3--|--------
6-------------------|--1--|--------

1----------------------------------
2----------------------------------
3---------------------------------- 2x
4----------3-----------------------
5----55x55-1-6-5-------------------
6----33x33---4-3-------------------

              (A)                      (B)
 | Baktım Olmaz Seyre Daldım | Anılardan Bir Tomardım
              (C)                      (D)
 | Çok Yoruldum Çok Daraldım | Penceremden Gir İçeri

1----------------------------------
2----------------------------------
3-(A)--|--(B)-|-(C)-|-(D)-|--------
4-5----|---5--|--3--|--3--|--------
5-3----|---3--|--1--|--3--|--------
6-------------------|--1--|--------

1----------------------------------
2----------------------------------
3---------------------------------- 2x
4----------3-----------------------
5----55x55-1-6-5-------------------
6----33x33---4-3-------------------

              (A)                      (B)
 | Baktım Olmaz Seyre Daldım | Anılardan Bir Tomardım |
              (C)                      (D)            |OOOOOOOOOooooooooooo
 | Çok Yoruldum Çok Daraldım | Penceremden Gir İçeri  |Kendimden geçir beni

1----------------------------------
2----------------------------------
3-(A)--|--(B)-|-(C)-|-(D)-|--------
4-5----|---5--|--3--|--3--|--------
5-3----|---3--|--1--|--3--|--------
6-------------------|--1--|--------
  Am
1--x-------------------------------
2--1-------------------------------
3--2-------------------------------
4--2-------------------------------
5--x-------------------------------
6--x-------------------------------

1----------------------------------
2----------------------------------
3---------------------------------- 2x
4----------3-----------------------
5----55x55-1-6-5-------------------
6----33x33---4-3-------------------
-