Ogün Sanlısoy - Hiç Kimse Bilmedi
Zorluk: Kolay Version: 1 Kapo: 0 İçerik: Akor
Tranpose
E|------------------------|--------------------------------|
B|---0-0-----0-----0------|--------1-1-1-1-1-1-1---0-------|
G|--------2-----2---------|X3 -------------------2---------|
D|------------------------|--------------------------------|
A|------------------------|--------------------------------|
E|------------------------|--------------------------------|
 
Em                        D
Aynı bardağa konan şaraptan içtik
Am              Em
Ayrı seslere aldırmadan
Em                        D
Dağ başında gölle dur demek kolaydı
Am            Am
Biz zor olanı seçtik
 
Em                        D
Bir bakış akılları yerinden aldı
Am              Em
Gözümde parlayan ışık kaldı
Em                        D
Tam kamışmaya alışmaya başlamışken
Am
Herşey birden karardı
D
Saklayacak ne kaldı
 
Em            D                   )
Hiç kimse bilmedi                 )
Am            C     Em            )
Hiç kimse duymadı sandık          ) Nak. X2
Em            D                   )
Hiç kimse anlamaz                 )
Am             C     Em           )
Hiç kimse ayırmaz sandık   hep    )
 
E|------------------------|--------------------------------|
B|---0-0-----0-----0------|--------1-1-1-1-1-1-1---0-------|
G|--------2-----2---------|(X3) -----------------2---------|
D|------------------------|--------------------------------|
A|------------------------|--------------------------------|
E|------------------------|--------------------------------|
 
Aynı daldan kopan elma seçtik
Yasaklara aldırmadan
Bu oyunda başrole ikimiz geçtik
Sonu pek mutlu olmayan
 
Hiç kaçış yolu yok içim daraldı
Çözümü olmayan düğümler bir bir arttı
Yolları ayırmayı kabullendik
Bizden bişey kopardı
 
Kaybedecek ne kaldı
 
Hiç kimse bilmedi              )
Hiç kimse duymadı sandık       ) Nak. X4
Hiç kimse anlamaz              )
Hiç kimse ayırmaz sandık  hep  )
-