Mustafa Ceceli - Unutamam
Zorluk: Kolay Version: 1 Kapo: 0 İçerik: Akor
Tranpose
SOLO  e----------13----13-15-16------------13--------------------------
      b-13-14-16----------------14---14-16----16---14----14-13---------
      G-----------------------------------------------15---------------
      D----------------------------------------------------------------
      A----------------------------------------------------------------
      E----------------------------------------------------------------


      e----------13----13-15-16----------------13----------------------
      b-13-14-16----------------14-14----14-16----16-16-14----14-13----
      G----------------------------------------------------15----------
      D----------------------------------------------------------------
      A----------------------------------------------------------------
      E----------------------------------------------------------------

      e----------------------------------------------------------------
      b-13-16-13-14-16-14-----11-14-11-13-14-13------------------------
      G----------------------------------------------------------------
      D----------------------------------------------------------------
      A----------------------------------------------------------------
      E----------------------------------------------------------------

      e----------------------------------------------------15r---------
      b-13-16-13-14-16-14-----11-14-11-13-14-13---13-14-16-------------
      G----------------------------------------------------------------
      D----------------------------------------------------------------
      A----------------------------------------------------------------
      E----------------------------------------------------------------


PARÇANIN GİRİŞİ


       Em        C            D        Em
Unutmadım unutamam kara sevdam merak etme
       Em         C             D             Em
Yaşamaksa yaşadım lakin canımın çoğu kaldı sende

       C                   Em
Pişman mıyım asla güzelleştim yasla
       C                 Em                 B
Sevmedim mi sevdim evet Sende sonra ihtirasla

       Em               Bm
Ama benim ciğerim yanar ten oyalanır can kanar
C               D               C                 Em   X2NAKARAT
İki gözüm iki çeşme haberin yok İçerime içerime akar

     
 
      C        Am          D          Em
Unutmadım unutamam Kara sevdam merak etme
       C         Am              D            Em  
Yaşamaksa yaşadım lakin Canımın çoğu kaldı sende

Em               Bm
Ama benim ciğerim yanar ten oyalanır can kanar
C               D               C                 Em   X2NAKARAT
İki gözüm iki çeşme haberin yok İçerime içerime akar
-