Mor ve Ötesi - Eski Şarkısı
Zorluk: Kolay Version: 1 Kapo: 0 İçerik: Akor
Tranpose
intro: Dm G x3    G Dm F / G G
E|-----------------------------------------------------
A|-----------------------------------------------------
D|-0--------------0--------0-------------0---------------
G|-2------2-------3----3---4--4----4-------5---------5---
B|-3----3---------3---3----3-----3------------3---3----3-
E|-5-5------5-----3--3-----3---3-----3----------0--------
 
E|----------------------------------------
A|----------------------------------------
D|--0------------------0------------------   x3
G|----2----------2--------0-------0-------
B|------------3----3--------3---3---3-----
E|------1--0------------------3-----------
 
E|--------------------------------------------------------
A|--------------------------------------------------------
D|-0-----------------0------------2------------0----------
G|-----0---------------2------------0-----------0-----0---
B|-----------3-------------3-------------1----------3---3-
E|---------3-------------1------------0-----------3-------
 
Dm G         Dm G        Dm
   yenebilirsin dertlerini
Dm G                    Dm F / G    G
   atabilirsin ölü toprağı zalimin yüzüne
Dm G           Dm  G        Dm
   aynadır  kalbim günü yansıtır
Dm G                    Dm  F / G   G
   silebilirsin izlerimi yaptıklarının
G          F         A            Dm
teker teker dağılıyor efkarı kalbimin
G          F         A           Asus4
bulut bulut çözülüyor esrarı geçmişin
 
Dm G x3    G Dm F / G G
 
Dm G         Dm G        Dm
   gidebilirsin daha uzağa
Dm G                     Dm
   sözcükten öte bir diyara
   F / G    G
   gerçek rüyaya
Dm G         Dm G
   soruyor şimdi eski şarkısı
Dm G                     Dm
   yüzüne bakıp gülüyor sanki
   F / G     Dm
   kan kırmızı
G          F         A            Dm
teker teker dağılıyor efkarı kalbimin
G          F         A           Asus4
bulut bulut çözülüyor esrarı geçmişin
G          F         A            Dm
bugün değil yarın için yıkmaya hazırım
G          F         A           Asus4
bu şah bu şahbaz devrini
G          F         A           Asus4
bulut bulut çözülüyor esrarı
G          F         A           Asus4
bu şah bu şahbaz devrinin
 
E|---------17--15h-----------15-13h----------13-12h---------12-10h--
B|------------------------------------------------------------------
G|---14-15-----------15-14-----------14-12----------12-10-----------
D|------------------------------------------------------------------
A|------------------------------------------------------------------
E|------------------------------------------------------------------
 
E|---------17--15h-----------15-13h----------13-12h----10-9-9-------
B|------------------------------------------------------------------
G|---14-15-----------15-14-----------14-12--------------------------
D|------------------------------------------------------------------
A|------------------------------------------------------------------
E|------------------------------------------------------------------
 
E|-----------20-18h---------18-17h-----------17-15h-----------15--13h-
B|--------------------------------------------------------------------
G|---18--19----------19-17-----------17-15------------15-14-----------
D|--------------------------------------------------------------------
A|--------------------------------------------------------------------
E|--------------------------------------------------------------------
 
E|-----------20-18h---------18-17h---------22----21--21----18----17h--
B|-------------------------------------18-----18--------------18------
G|---18--19----------19-17--------------------------------------------
D|--------------------------------------------------------------------
A|--------------------------------------------------------------------
E|--------------------------------------------------------------------
-