Moğollar - Selvi Boylum Al Yazmalım
Zorluk: Kolay Version: 1 Kapo: 0 İçerik: Akor
Tranpose
e------12-11-12--9~~I--9----9---------I
B-------------------I----10---12-12~~-I
G--11~~-------------I-----------------I
D-------------------I-----------------I  )
                                         )
e---------------I--------------          )  x2
B-12-12--9-10---I-9-10-12-9----          )
G------------11-I-----------11-
D---------------I--------------
 
e-------------9--------I----------------------I
B-9h10-12-12~--12-12---I-9-10-10-9-10-12-9----I
G~---------------------I------------------11~~I
D----------------------I----------------------I   )
                                                  )
e--------------------I------------------          ) x2
B---10-10-9-10-12-9~~I------------------          )
G--9-----------------I-11-11~~11-11-11~~
D--------------------I------------------
-