Moğollar - Madımak
Zorluk: Kolay Version: 1 Kapo: 0 İçerik: Akor
Tranpose
Part1:
 e|---------------|----------------|
 b|---------------|----------------|
 g|----4------4---|-0-0-2------2---|
 d|-2----2-2----2-|-------0--0---0-|tekrar 2 defa
 a|---------------|----------------|
 e|---------------|----------------|
 
 Part2:
 e|-------------|------------------|
 b|-------------|------------------|
 g|-2-0-2-4-5---|-7-9-9-5-7--7p5s4-|
 d|-------------|------------------|tekrar 4 defa
 a|-------------|------------------|
 e|-------------|------------------|
 
 e|------------------5-|
 b|--------------------|
 g|-2--2-0-2--2-0-2----|
 d|--------------------| 1 defa
 a|--------------------|
 e|--------------------|
 
 Part3:
 e|-5-3-5-7-8---|-10-12-12-8-10--10p8s7-|
 b|-------------|-----------------------|
 g|-------------|-----------------------|
 d|-------------|-----------------------|tekrar 4 defa
 a|-------------|-----------------------|
 e|-------------|-----------------------|
 
 e|-5--5-3-5--5-3-5--17-|
 b|---------------------|
 g|---------------------|
 d|---------------------| 1 defa
 a|---------------------|
 e|---------------------|
 
 Part4:
 e|-7h8-8-8-8-8-7h8-8-8-8-8-7h8-8-7h8-8-7h8-8-|Etc...
 b|-------------------------------------------|
 g|-------------------------------------------|
 d|-------------------------------------------|
 a|-------------------------------------------|
 e|-------------------------------------------|
-