Moğollar - Devlerin Aşkı Moğollar
Zorluk: Kolay Version: 1 Kapo: 0 İçerik: Akor
Tranpose
\  Kaydırma
   ~  Bağlama Tarzı birleştir
 
   E-------------------------------------------12\10-10\12---
   A------------------------------10\12\10--9----------------
   D-----------------11\12\11--9-----------------------------
 2[G7\9-11\12\11--9------------------------------------------
   B---------------------------------------------------------
   e---------------------------------------------------------
 
 E-12--------------------------------------------------------
 A---9-10-12---------12--------------------------------------
 D----------10-9~10~9--10-9-12-12----------------------------
 G-------------------------9------11-9-9--12-11-11\14--------
 B-----------------------------------------------------------
 e-----------------------------------------------------------
 
 E----------------------------------------------------------
 A----------------------------------------------------------
 D----------------------------------------------------------
 G---12-12--------------------------------------------------
 B-10------12-10-10---13-12-12----13-13---------------------
 e------------------------------10--------12-10-10--14-12-12
-