Moğollar - Bebek
Zorluk: Kolay Version: 1 Kapo: 0 İçerik: Akor
Tranpose
[0:07]
 
 e|----------------|----------------|----------------|
 b|-7~~~~~---5h7p5-|-5~~~~~---5b7r5-|-3~~~----0--2---|
 g|----------------|----------------|----------------|
 d|----------------|----------------|----------------|
 a|----------------|----------------|----------------|
 e|----------------|----------------|----------------|
 
 e|----------------|----------------|----------------|
 b|-3~~~~~---3b5r3-|-2~~~~~---------|----------------|
 g|----------------|---------2-0----|----------------|
 d|----------------|-------------4~-|-9~~~~~~--------|
 a|----------------|----------------|----------------|
 e|----------------|----------------|----------------|
 
 [0:26]
 
 e|----------------|----------------|----------------|
 b|-7~~~~~---5h7p5-|-5~~~~~---5b7r5-|-3~~~----0--2---|
 g|----------------|----------------|----------------|
 d|----------------|----------------|----------------|
 a|----------------|----------------|----------------|
 e|----------------|----------------|----------------|
 
 e|----------------|----------------|----------------|
 b|-3~~~~~---3b5r3-|-2~~~~~---------|----------------|
 g|----------------|---------2-0----|----------------|
 d|----------------|-------------4~-|-9~~~~~~--------|
 a|----------------|----------------|----------------|
 e|----------------|----------------|----------------|
 
 [0:48]
 
 e|-5~~-3-3h5p3~~--|-3~~--3b5r3-2~~-|-2b3r2--0~~~~---|
 b|----------------|----------------|----------------|
 g|----------------|----------------|----------------|
 d|----------------|----------------|----------------|
 a|----------------|----------------|----------------|
 e|----------------|----------------|----------------|
 
 e|----------------|----------------|----------------|
 b|-5b7r5-3~~~~----|--1~~~----------|----------------|
 g|----------------|--------3~~~----|-2~~~~~~~~------|
 d|----------------|----------------|----------------|
 a|----------------|----------------|----------------|
 e|----------------|----------------|----------------|
 
 [1:07]
 
 e|17-15h17p15-15~-|15-15-15b17r15--|14~~~~~---------|
 b|----------------|----------------|----------------|
 g|----------------|----------------|----------------|
 d|----------------|----------------|----------------|
 a|----------------|----------------|----------------|
 e|----------------|----------------|----------------|
 
 e|14b15r14--12~~~-|-12b14r12--10~~-|-8~--6~--5~~~~--|
 b|----------------|----------------|----------------|
 g|----------------|----------------|----------------|
 d|----------------|----------------|----------------|
 a|----------------|----------------|----------------|
 e|----------------|----------------|----------------|
 
 [1:30]
 
 e|----------------|----------------|----------------|
 b|-7~~~~~---5h7p5-|-5~~~~~---5b7r5-|-3~~~----0--2---|
 g|----------------|----------------|----------------|
 d|----------------|----------------|----------------|
 a|----------------|----------------|----------------|
 e|----------------|----------------|----------------|
 
 e|----------------|----------------|----------------|
 b|-3~~~~~---3b5r3-|-2~~~~~---------|----------------|
 g|----------------|---------2-0----|----------------|
 d|----------------|-------------4~-|-9~~~~~~--------|
 a|----------------|----------------|----------------|
 e|----------------|----------------|----------------|
 
 [1:50]
 
 e|14~~~--12h14p12-|12~~~--12b14r12-|10~~~~~---7--9--|
 b|----------------|----------------|----------------|
 g|-----
 d|-----
 a|-----
 e|-----
 
 e|10~~~--10b12r10-|9~~~--5~~--3~~--|-2s7~~~~~~------|
 b|-----
 g|-----
 d|-----
 a|-----
 e|-----
-