Model - Baykuş Kral
Zorluk: Kolay Version: 1 Kapo: 0 İçerik: Akor
Tranpose
E:---0-2--2-3--5-3--3-2--
A:-----------------------
D:-----------------------
G:-----------------------
B:-----------------------
E:-----------------------

E:---0-2--2-3--3----0----
A:--------------4-4------
D:-----------------------
G:-----------------------
B:-----------------------
E:-----------------------

solo;

E:--12--12------------------------------
A:--------------------------------------
D:--------------------------------------
G:----------5-7---4-5--5-7----2-4-1-2---
B:--------------------------------------
E:--------------------------------------
-