Manga - Evdeki Ses
Zorluk: Kolay Version: 1 Kapo: 0 İçerik: Akor
Tranpose
E|------------------------------------|--------------------------------|
B|------------------------------------|--------------------------------|
G|-----------------------------8------|--8-9-8----8-9-8-----8-9-8-11---|
D|-9-10-9-8-9-10-9-8-9-10-9-10--------|--------10-------10-------------|
A|------------------------------------|--------------------------------|
E|------------------------------------|--------------------------------|

E|------------------------------------|--------------------------------|
B|------------------------------------|--------------------------------|
G|-12-11-9-11-9-8-9-8-9-11-9-8--------|---------8-11-9-8---------------|
D|-----------------------------10-9---|--7-9-10----------10-9----------|
A|------------------------------------|--------------------------------|
E|------------------------------------|--------------------------------|

burda baya bi hızlanıoo...

E|------------------------------------|--------------------------------|
B|------------------------------------|--------------------------------|
G|-----------------------------8------|--8-9-8----8-9-8-----8-9-8-11---|
D|-9-10-9-8-9-10-9-8-9-10-9-10--------|--------10-------10-------------|
A|------------------------------------|--------------------------------|
E|------------------------------------|--------------------------------|

E|------------------------------------|----------------------------------|
B|------------------------------------|----------------------------------|
G|-12-11-9-11-9-8-9-8-9-11-9-8--------|----------------8-11-9-8----------|
D|-----------------------------10-9---|--7-7-9-9-10-10---------10-9-10-9-|
A|------------------------------------|----------------------------------|
E|------------------------------------|----------------------------------|
-