Kurtalan Ekspres - İşte Gidiyorum (Feat. Şevval Sam)
Zorluk: Kolay Version: 1 Kapo: 0 İçerik: Akor
Tranpose
Intro: G5 Eb5 G5 F5
 
E|---------------3--------------~6---------|
B|---3--4--6--------6--4--3------------6---|
G|-----------------------------------------|
D|-----------------------------------------|
A|-----------------------------------------|
E|-----------------------------------------|
 
E|--------------3--------------~6--------8--6--5----6--5--3---|
B|---3--4--6--------6--4--3-----------------------------------|
G|------------------------------------------------------------|
D|------------------------------------------------------------|
A|------------------------------------------------------------|
E|------------------------------------------------------------|
 
G5
İşte gidiyorum
F5
Bir şey demeden
Eb5
Arkamı dönmeden
F5
Şikayet etmeden
G5
Hiçbir şey almadan
F5
Bir şey vermeden
Eb5            F5       Eb5  Eb5 F5 Eb5
Yol ayrılmış, görmeden gidiyorum
 
C5 D5    C5 D5 Eb5
 
Ne küslük var ne pişmanlık kalbimde
Yürüyorum sanki senin yanında
Sesin uzaklaşır herbir adımda
Ayak izim kalmadan gidiyorum
 
Gerdiğin tel kalbimde kırılmadı
Gönülkuşu şarkıdan yorulmadı
Bana kimse sen gibi sarılmadı
Işığımız sönmeden gidiyorum
-