Kurban - Lambaya Püf De
Zorluk: Kolay Version: 1 Kapo: 0 İçerik: Akor
Tranpose
Gitar I
  --------------I---------------------------------------------------
  --------------I---------------------------------------------------
  --7-7--7--7-7-I---14-13-x-x-10-9--7-7--7-7--14---13-x-x-10-9-7-7--
  --7-7--7--7-7-I---14-13-x-x-10-9--7-7--7-7--14---13-x-x-10-9-7-7--
  --5-5--5--5-5-I---12-11-x-x-8--7--5-5--5-5--12---11-x-x-8--7-5-5--
  --------------I---------------------------------------------------
    şarkının             
     başında
  ------------------------------------------------------------------
  ------------------------------------------------------------------
  -7-7--10---9-x-x-7-6--7-7--7-7--10--9-x-x-7-6--7-7--7-7--14-------
  -7-7--10---9-x-x-7-6--7-7--7-7--10--9-x-x-7-6--7-7--7-7--14-------
  -5-5--8----7-x-x-5-4--5-5--5-5--8---7-x-x-5-4--5-5--5-5--12-------
  ------------------------------------------------------------------
 
   Gitar II
  ------------------------------------------------------------------
  ------------------------------------------------------------------
  -14-13-13-10-10--7-14-13-13-10-10-7-10-9-9-7-6-7-10-9-7-6-7-------
  ------------------------------------------------------------------
  ------------------------------------------------------------------
  ------------------------------------------------------------------
  
    Bass 
  -7-6-7---7-6-7---7-6-7---7-6-7---7-6-7---7-6-7---7-6-7-9-10-9-7-6-
  -------7-------7-------7-------7-------7-------7------------------
  ------------------------------------------------------------------
  ------------------------------------------------------------------
-