Kargo - Yıldızlar Ellerinde
Zorluk: Kolay Version: 1 Kapo: 0 İçerik: Akor
Tranpose
Intro akorları : Cm Ab Bb
 
E|---------------------------------------------------------------
B|--------------------------------------------------8------------
G|--\8-7-8---7-8-7--------------------\8-7-8---8-10---10-8-7h8---   (2 Kere)
D|-----------------10-8----8-10----------------------------------
A|----------------------10---------------------------------------
E|---------------------------------------------------------------
 
Cm  Bb        Ab
Yalnız bir sır gibi, yol aldım günlerce.
Hayaller ve martılar ,yardım etti gizlice.
 
G             Ab       Bb       G
Sessiz bir kurşun gibi ,atıldım birden göğe.
 
Nak.: 1 kere
Cm   Ab      Bb
Yıldızlar ellerinde ,sevgilim
Denizler gözlerinde ,senin
Gökyüzü dizlerinde ,senin
Cm   Ab      Bb             G
Tüm dünya seninle ,sevgilim...
 
Intro Solo (Yine 2 kere)
 
Cm   Bb      Ab
Aşkı hiç bilmeyen ,soğuk ıssız bir yere,
Küçük bir kuş gibi ,uçtum geceler boyunca.
 
G            Ab      Bb        G
Sıcaklığı iyi bilen ,yemyeşil diyarlara
 
Nak.: 1 kere
Cm   Ab      Bb
Yıldızlar ellerinde ,sevgilim
Denizler gözlerinde ,senin
Gökyüzü dizlerinde ,senin
Cm   Ab      Bb             G5
Tüm dünya seninle ,sevgilim...
 
Ab5         Bb5         G5     C5      Bb5     Ab5
Bir umut bir haber için yüzümü göğe çevirdim
Ab5         Bb5         G5     C5      Bb5     Ab5     G5
Bir sevgi yada aşk için kendimi sana getirdim işte o an..
 
Nak.: 2 kere ,2.'nin sonunda asıl solo giriyor.
Cm   Ab      Bb
Yıldızlar ellerinde ,sevgilim
Denizler gözlerinde ,senin
Gökyüzü dizlerinde ,senin
Cm   Ab      Bb             G
Tüm dünya seninle ,sevgilim...
 
Solo:
 
E|-------------------------------------------------------------------------
B|---------13----15----16--------------------------------------------------
G|-----\12----12----12----------13-12-12-13--10----------------------------
D|----------------------------------------------11-------------------------
A|-------------------------------------------------------------------------
E|-------------------------------------------------------------------------
 
E|-------------------------------------------------------------------------
B|---------13----15----16-------\13-11-------------------------------------
G|-----\12----12----12-----------------13-12-10----------------------------
D|----------------------------------------------11-10----------------------
A|----------------------------------------------------13\15\13\15\13-------
E|-------------------------------------------------------------------------
 
E|-------------------------------------------------------------------------
B|---------13----15----16-------16-16-16--14-13-------14-------------------
G|-----\12----12----12--------------------------15-13----15----------------
D|-------------------------------------------------------------------------
A|-------------------------------------------------------------------------
E|-------------------------------------------------------------------------
 
E|-------------------------------------------------------------------------
B|---13-12-------------------------13-16-15-13-----------------------------
G|---------15-13-12-13-15----------------------15-13-12--------------------
D|------------------------------------------------------15-13-12-----------
A|---------------------------------------------------------------15-13-15--
E|-------------------------------------------------------------------------
-