Kargo - Marilyn Manroe
Zorluk: Kolay Version: 1 Kapo: 0 İçerik: Akor
Tranpose
intro:    Bb  Ab Bb  Ab Bb  Ab Bb  Ab

 riff 1:
 e|----------------------------|----------------------------|
 b|----------------------------|----------------------------|
 g|----------------------------|----------------------------|
 d|8-6---------------------6-8-|8-6---------------------6-8-|
 a|----8-6--8--6--8--6---8-----|----8-6--8--6--8--6---8-----|
 e|----------------------------|----------------------------|

 e|----------------------------|----------------------------|
 b|----------------------------|----------------------------|
 g|----------------------------|----------------------------|
 d|8-6---------------------6-8-|8-6---------------6~--6-6-8-|
 a|----8-6--8--6--8--6~--8-----|----8-6--8--6--8------------|
 e|----------------------------|----------------------------|

 e|-----------------------------|
 b|-----------------------------|
 g|-----------------------------|
 d|-----------------------------|
 a|-8~~~~~----------------------|
 e|-----------------------------|

 Bb       Ab             Bb         Ab
 Çamlarin üstündeki rüzgar (ba ba ba...)
 Bb     Ab             Bb         Ab
 bir kariyerin sonu gibi (ba ba ba...)
 Bb       Ab             Bb         Ab
 yasli gecenin yüzüne indi (ba ba ba...)
 Bb         Ab            Bb      Ab
 olacaklar kendini belli ederdi...

 riff 2:
 e|------------------------|------------------------|
 b|------------------------|------------------------|
 g|------------------------|------------------------|
 d|-8-8-6-6-8~-8-8-6-6--6--|-8-8-6-6-8~-8-8-6-6--6--|
 a|-8-8-6-6-8~-8-8-6-6--6--|-8-8-6-6-8~-8-8-6-6--6--|
 e|-6-6-4-4-6~-6-6-4-4--4--|-6-6-4-4-6~-6-6-4-4--4--|



 Bölüm 2 : enstrumental

 riff 3:
 e|-------------|--------------|--------------|-------------|
 b|-------------|--------------|--------------|-------------|
 g|-------------|--------------|--------------|-------------|
 d|6-66-6-6-8-6-|-4-44-4-4-2-4-|-6-66-6-6-8-6-|-4-44-4-4-2-4|
 a|6-66-6-6-8-6-|-4-44-4-4-2-4-|-6-66-6-6-8-6-|-4-44-4-4-2-4|
 e|4-44-4-4-6-4-|-2-22-2-2-0-2-|-4-44-4-4-6-4-|-2-22-2-2-0-2|

 ve

 e|--------|--------|---------|--------|
 b|--------|--------|---------|--------|
 g|--------|--------|---------|--------|
 d|--------|--------|-8---8s6-|-6------|
 a|-6------|-9------|---------|--------|
 e|--------|--------|---------|--------|

 e|--------|--------|---------|--------|
 b|--------|--------|---------|--------|
 g|--------|--------|---------|--------|
 d|--------|--------|-8----11-|-11-----|
 a|-6------|-9------|---------|--------|
 e|--------|--------|---------|--------|
-