Kargo - Evetlerden Hayırlara
Zorluk: Kolay Version: 1 Kapo: 0 İçerik: Akor
Tranpose
Intro:

G|---------5-------------5--------------5-----------5-------
D|---5s7------7----5-7------7-5---5-7------7---5-7---7-5---5
A|-0-----0-------0-----0--------7-----0------0-----------7--
E|----------------------------------------------------------

Riff1:
G|----------5-------------5-------|
D|*---5-7------7----5-7------7-5-*|  Tekrar cok defa
A|*-7-----0-------0-----0--------*|
E|--------------------------------|
guitar ile:
    e|----------------------------|
    b|---10~~---8--8-7--8~~-------|
    g|*---9~~---7--7-6--7~~------*|
    d|*---7~~---5--5-4--5~~------*|
    a|----------------------------|
    e|----------------------------|

Riff2
    G|-----------------|-----------------|
    D|-----------------|-----------------|
    A|-3-3-3-3-3-3-3-3-|-3-3-3-3-3-3-3-3-|
    E|-----------------|-----------------|

Riff3:
    G|-----------------|-----------------|
    D|-----------------|-----------------|
    A|-8-8-8-8-8-8-8-8-|-7-7-7-7-5-5-3-2-|
    E|-----------------|-----------------|
Riff4:
    G|-----------------|-----------------|
    D|-----------------|-----------------|
    A|-----------------|-----------------|
    E|-3-3-3-3-3-3-3-3-|-3-3-3-3-3-3-3-3-|

    G|-----------------|-----------------|
    D|-----------------|-----------------|
    A|-----------------|-----------------|
    E|-5-5-5-5-5-5-5-5-|-5-5-5-5-5-5-5-5-|

    G|-----------------|-----------------|
    D|-----------------|-----------------|
    A|-----------------|-----------------|
    E|-3-3-3-3-3-3-3-3-|-3-3-3-3-3-3-3-3-|

    G|-----------------|--------------------|
    D|-----------------|--------------------|
    A|-----------------|--------------------|
    E|-1-1-1-1-1-1-1-1-|-1---0-0--0-0--0~~--|

Riff1          Riff1
Bazen sinirli, bazen uysal
Riff1        Riff1
Bazen sesli, bazen sessiz
Riff1         Riff1
Biraz neseli, biraz nesesiz
Riff1        Riff1
Bazen askla, bazen hayatla

Riff2                  Riff1
Bazen guzel anlar gibi kisa...

Riff3
Evetlerden hayirlara
Riff1 [intro gibi]
Yeniden basliyoruz yarisa...

Riff4
Gerçek ne kadar aci olsada
Ölum bekler bizi hep sonunda
-