Kargo - Arabik Fahişe
Zorluk: Kolay Version: 1 Kapo: 0 İçerik: Akor
Tranpose
Am
Ben arabic fahiseyim,
G
iyi öpüsür dans ederim
C
Suda yaprak,
Dm
içki masasinda mezeyim
Am
Anam, babam bulmasin beni
G
bilinmesin bedenin dili
C
Ben oryantal fahiseyim
Dm
Aklin degil,
           Am
etin pesindeyim
 
A5
Yersiz ,yurtsuz fahise
G5
Dertsiz ,dilsiz fahise
C5
Suçsuz arabic fahise için
D5
Dünden oryantal çal!
 
Riff 1:
 
e|--------------------|--------------------|
b|--------------------|--------------------|
g|--------------------|---------5----------|
d|-5s7-7-X-5-X-7-7-XX-|-5s7-7-X-5-X-7-7-XX-|
a|-5s7-7-X-5-X-7-7-XX-|-5s7-7-X-3-X-7-7-XX-|
e|-3s5-5-X-3-X-5-5-XX-|-3s5-5-X---X-5-5-XX-|
 
e|--------------------|--------------------|
b|--------------------|--------------------|
g|--------------------|-7s6-5-X------------|
d|-5s7-7-X-5-X-7-7-XX-|-7s6-5-X-5-X-7-7-XX-|
a|-5s7-7-X-5-X-7-7-XX-|-5s4-3-X-5-X-7-7-XX-|
e|-3s5-5-X-3-X-5-5-XX-|-------X-3-X-5-5-XX-|
 
Ve
 
e|--------------------|--------------------|
b|--------------------|--------------------|
g|-7s6-6-X-7-X-6-6-XX-|-7s6-6-X-7-X-6-6-XX-|
e|-7s6-6-X-7-X-4-6-XX-|-7s6-6-X-7-X-4-6-XX-|
b|-5s4-4-X-5-X-4-4-XX-|-5s4-4-X-5-X-4-4-XX-|
g|--------------------|--------------------|
 
Solo:
e|------------------13-13-13-12-12---------|
b|-14~~~-15-15-15~-------------------------|
g|-----------------------------------------|
d|-----------------------------------------|
a|-----------------------------------------|
e|-----------------------------------------|
 
e|-12h13s17~-17-13-13-13-12-12-12-10-10--10-|
b|------------------------------------------|
g|------------------------------------------|
d|------------------------------------------|
a|------------------------------------------|
e|------------------------------------------|
 
e|-9-9-10-9-5-6-6~~~---9-6-5~~~~------------|
b|------------------------------------------|
g|------------------------------------------|
d|------------------------------------------|
a|------------------------------------------|
e|------------------------------------------|
 
Am
Ben arabic fahiseyim,
G
islagim, suyum, terim
C
Istenince gider,
Dm
birakinca gelirim
Am
Ruhum; Tibetli 'li bir rahip
G
kentin los caddelerinde
C
Kalbim; kuduz bir köpek
Dm               Am
Pasteur'un dizlerinde
 
A5
 
A5
Yersiz ,yurtsuz fahise
G5
Dertsiz ,dilsiz fahise
C5
Suçsuz arabic fahise için
D5
Dünden oryantal çal!
-