James Taylor - Fire And Rain - Tabs
Zorluk: Kolay Version: 1 Kapo: 0 İçerik: Akor
Tranpose
[Intro]
                                                     (/without plucking string, just pull finger off)
e|-----5----------3------0h2--0-2----------------0-0-------------------------|
B|-------5----------3----3----3-3--0h2----2------3-0--(2)p0---0h2---2--------|
G|-4/6-----6--6/4-----4--2----2-2--2------------------------2-2----2----1--1-|
D|---------------------------------2--------------------------2---------2-2--|
B|-0------------------------------(0)----0--0-0------------------------------|
E|------------0---------------------------------------------------------0----|
 
e|-----------------2---------------2-----------------------------------------|
B|---------3--------------3--------------------------------------------------|
G|--------0--------------0---------------------------------------------------|
D|-2p0---0------0-------0------0---------------------------------------------|
A|---------------------------------------------------------------------------|
E|-----3------3---3---3------3---3-------------------------------------------|
 
 
 
[Verse 1]
 
e|----5----------3-3------------------2-2------------------------------------|
B|-5---5---------3--3-----------------3-3-----------2----0h2---0-0h2---------|
G|-6----6--------4---4----------------2-2-----------2----2---2-2-2-----------|
D|---------------------------------------------------------------------------|
A|-0-------------------------------------------------------------------------|
E|---------------0----------------------------------0--0---------------------|
   Just yesterday morning. they let me know you were gone
 
 
e|----------------------------------------------2----------------------------|
B|--2--------------------------------------3------3---3----------------------|
G|-2-2--------1---1----------------------0----------0------------------------|
D|------------2--2---------------------0-----0-------------------------------|
A|------------------2p0------------------------------------------------------|
E|------------0----------------------3-----3----3-----3----------------------|
  Susanne the plans they made put an end to you
 
 
e|----5----------3-3------------------2-2------------------------------------|
B|-5---5---------3--3-----------------3-3-----------2----0h2---0-0h2---------|
G|-6----6--------4---4----------------2-2-----------2----2---2-2-2-----------|
D|---------------------------------------------------------------------------|
A|-0-------------------------------------------------------------------------|
E|---------------0----------------------------------0--0---------------------|
  I walked out this morning, and I wrote down this song
 
 
e|-------------------------------------------2-------------------------------|
B|--2-----------------------------------3------3---3-------------------------|
G|-2-2--------1---1-------------------0----------0---------------------------|
D|------------2--2------------------0-----0----------------------------------|
A|------------------2p0------------------------------------------------------|
E|------------0-------------------3-----3----3-----3-------------------------|
  I just can't remember who to send it to
 
 
 
[Chorus]
   D
e|---------------------------------------------------------------------------|
B|-3---3--------3------3-----------2----0h2---0-0h2---2----------------------|
G|-2---2--------2------2-----------2----2---2-2-2---2------------------------|
D|-0---0---------------2-----------------------------------------------------|
A|--------------2------------------0--0--------------------------------------|
E|-----4---------------------------------------------------------------------|
      I've seen fire and I've seen rain
 
e|---------------------------------------------------------------------------|
B|----------3-----3-----------3-------------2--------2----0h2---0-0h2---2----|
G|----------2-----2-----------2-------------2--------2----2---2-2-2---2------|
D|----------0-----0---------------------------------------------------------|
A|----------------------------2-------------0--------0--0--------------------|
E|----------------4----------------------------------------------------------|
  I've seen sunny days that I thought would never end
 
e|---------------------------------------------------------------------------|
B|-------------3------3------------3----------3---------2----0h2---0-0h2---2-|
G|-------------2------2------------2----------2---------2----2---2-2-2---2---|
D|-------------0------0-----------------------2------------------------------|
A|---------------------------------2--------------------0--0-----------------|
E|--------------------4------------------------------------------------------|
     I've seen lonely times when I could not find a friend
 
e|------2------0----------------3------0-------------------------------------|
B|------3------3----------------0------0-------------------------------------|
G|------0------2----------------0------0-------------------------------------|
D|-------------------------------------0-------------------------------------|
A|------------------------------2------2-(strum)-----------------------------|
E|------3------2-------------------------------------------------------------|
  But I always thought that I'd see you again
 
 
[Verse 2]
 
e|----5----------3-3------------------2-2------------------------------------|
B|-5---5---------3--3-----------------3-3-----------2----0h2---0-0h2---------|
G|-6----6--------4---4----------------2-2-----------2----2---2-2-2-----------|
D|---------------------------------------------------------------------------|
A|-0-------------------------------------------------------------------------|
E|---------------0----------------------------------0--0---------------------|
   Won't you look down upon me, Jesus, you've got to help me make a stand
 
 
e|----------------------------------------------2----------------------------|
B|--2--------------------------------------3------3---3----------------------|
G|-2-2--------1---1----------------------0----------0------------------------|
D|------------2--2---------------------0-----0-------------------------------|
A|------------------2p0------------------------------------------------------|
E|------------0----------------------3-----3----3-----3----------------------|
  You've just got to see me through another day
 
 
e|----5----------3-3------------------2-2------------------------------------|
B|-5---5---------3--3-----------------3-3-----------2----0h2---0-0h2---------|
G|-6----6--------4---4----------------2-2-----------2----2---2-2-2-----------|
D|---------------------------------------------------------------------------|
A|-0-------------------------------------------------------------------------|
E|---------------0----------------------------------0--0---------------------|
  My body's aching and my time is at hand
 
e|-------------------------------------------2-------------------------------|
B|--2-----------------------------------3------3---3-------------------------|
G|-2-2--------1---1-------------------0----------0---------------------------|
D|------------2--2------------------0-----0----------------------------------|
A|------------------2p0------------------------------------------------------|
E|------------0-------------------3-----3----3-----3-------------------------|
  And I won't make it any other way
 
 
 
 
[Chorus]
   D
e|---------------------------------------------------------------------------|
B|-3---3--------3------3-----------2----0h2---0-0h2---2----------------------|
G|-2---2--------2------2-----------2----2---2-2-2---2------------------------|
D|-0---0---------------2-----------------------------------------------------|
A|--------------2------------------0--0--------------------------------------|
E|-----4---------------------------------------------------------------------|
    Oh, I've seen fire and I've seen rain
 
e|---------------------------------------------------------------------------|
B|----------3-----3-----------3-------------2--------2----0h2---0-0h2---2----|
G|----------2-----2-----------2-------------2--------2----2---2-2-2---2------|
D|----------0-----0----------------------------------------------------------|
A|----------------------------2-------------0--------0--0--------------------|
E|----------------4----------------------------------------------------------|
  I've seen sunny days that I thought would never end
 
e|---------------------------------------------------------------------------|
B|-------------3------3------------3----------3---------2----0h2---0-0h2---2-|
G|-------------2------2------------2----------2---------2----2---2-2-2---2---|
D|-------------0------0-----------------------2------------------------------|
A|---------------------------------2--------------------0--0-----------------|
E|--------------------4------------------------------------------------------|
     I've seen lonely times when I could not find a friend
 
e|------2------0----------------3------0-------------------------------------|
B|------3------3----------------0------0-------------------------------------|
G|------0------2----------------0------0-------------------------------------|
D|-------------------------------------0-------------------------------------|
A|------------------------------2------2-(strum)-----------------------------|
E|------3------2-------------------------------------------------------------|
  But I always thought that I'd see you again
 
 
[Verse 3]
 
e|----5----------3-3------------------2-2------------------------------------|
B|-5---5---------3--3-----------------3-3-----------2----0h2---0-0h2---------|
G|-6----6--------4---4----------------2-2-----------2----2---2-2-2-----------|
D|---------------------------------------------------------------------------|
A|-0-------------------------------------------------------------------------|
E|---------------0----------------------------------0--0---------------------|
   Been walking my mind to an easy time my back turned towards the sun
 
 
e|----------------------------------------------2----------------------------|
B|--2--------------------------------------3------3---3----------------------|
G|-2-2--------1---1----------------------0----------0------------------------|
D|------------2--2---------------------0-----0-------------------------------|
A|------------------2p0------------------------------------------------------|
E|------------0----------------------3-----3----3-----3----------------------|
  Lord knows when the cold wind blows it'll turn your head around
 
 
e|----5----------3-3------------------2-2------------------------------------|
B|-5---5---------3--3-----------------3-3-----------2----0h2---0-0h2---------|
G|-6----6--------4---4----------------2-2-----------2----2---2-2-2-----------|
D|---------------------------------------------------------------------------|
A|-0-------------------------------------------------------------------------|
E|---------------0----------------------------------0--0---------------------|
  Well, there's hours of time on the telephone line to talk about things
  To come
 
e|-------------------------------------------2-------------------------------|
B|--2-----------------------------------3------3---3-------------------------|
G|-2-2--------1---1-------------------0----------0---------------------------|
D|------------2--2------------------0-----0----------------------------------|
A|------------------2p0------------------------------------------------------|
E|------------0-------------------3-----3----3-----3-------------------------|
  Sweet dreams and flying machines in pieces on the ground
 
 
[Chorus]
   D
e|---------------------------------------------------------------------------|
B|-3---3--------3------3-----------2----0h2---0-0h2---2----------------------|
G|-2---2--------2------2-----------2----2---2-2-2---2------------------------|
D|-0---0---------------2-----------------------------------------------------|
A|--------------2------------------0--0--------------------------------------|
E|-----4---------------------------------------------------------------------|
    Oh, I've seen fire and I've seen rain
 
e|---------------------------------------------------------------------------|
B|----------3-----3-----------3-------------2--------2----0h2---0-0h2---2----|
G|----------2-----2-----------2-------------2--------2----2---2-2-2---2------|
D|----------0-----0---------------------------------------------------------|
A|----------------------------2-------------0--------0--0--------------------|
E|----------------4----------------------------------------------------------|
  I've seen sunny days that I thought would never end
 
e|---------------------------------------------------------------------------|
B|-------------3------3------------3----------3---------2----0h2---0-0h2---2-|
G|-------------2------2------------2----------2---------2----2---2-2-2---2---|
D|-------------0------0-----------------------2------------------------------|
A|---------------------------------2--------------------0--0-----------------|
E|--------------------4------------------------------------------------------|
     I've seen lonely times when I could not find a friend
 
e|------2------0----------------3------0-------------------------------------|
B|------3------3----------------0------0-------------------------------------|
G|------0------2----------------0------0-------------------------------------|
D|-------------------------------------0-------------------------------------|
A|------------------------------2------2-(strum)-----------------------------|
E|------3------2-------------------------------------------------------------|
  But I always thought that I'd see you, baby, one more time again, now
-