Hayko Cepkin - Gökdelenler
Zorluk: Kolay Version: 1 Kapo: 0 İçerik: Akor
Tranpose
İntro: E5
 
  Gökdelenlerden tükürdüm dünyaya       Ben hayatım boyuncaaa  ha ha
E|--------------------------------------------------------------------|
B|--------------------------------------------------------------------|
G|-7-7-7-7-7-7-7-7-7--10-10-10-7-7----10-10-10-7-7-7-7-7--7-7--7-7----|
D|--------------------------------------------------------9-9--9-9----|
A|-5-5-5-5-5-5-5-5-5--8--8--8--5-5----8--8--8--9-9-9-9-9--9-9--9-9----|
E|--------------------------------------------------------------------|
 
   Bu yüzden kupkuru ağzıııııııııım    Bak   geçmedi  yıllarca           E5..
E|--------------------------------------------------------------------|
B|--------------------------------------------------------------------|
G|-7-7-7-7-7-7-7-7-7--10-10-10-7-7----10-10-10-7-7-7-7-7-7-7-7--------|
D|--------------------------------------------------------------------|
A|-5-5-5-5-5-5-5-5-5--8--8--8--5-5----8--8--8--9-9-9-9-9-9-9-9--------|
E|--------------------------------------------------------------------|
 
A5
Kalbimi yuvarladım sana Seni tanımasamda
Tezgahtan önüne Bir yudum al diye
Eğer hoşuna giderse Daha da iç diye
                           E5
Bukadarı yetsin artık,,, bu gece
 
  Gökdelenlerden tükürdüm dünyaya       Ben hayatım boyuncaaa  ha ha
E|--------------------------------------------------------------------|
B|--------------------------------------------------------------------|
G|-7-7-7-7-7-7-7-7-7--10-10-10-7-7----10-10-10-7-7-7-7-7--7-7--7-7----|
D|--------------------------------------------------------9-9--9-9----|
A|-5-5-5-5-5-5-5-5-5--8--8--8--5-5----8--8--8--9-9-9-9-9--9-9--9-9----|
E|--------------------------------------------------------------------|
 
   Bu yüzden kupkuru ağzıııııııııım    Bak   geçmedi  yıllarca           E5..
E|--------------------------------------------------------------------|
B|--------------------------------------------------------------------|
G|-7-7-7-7-7-7-7-7-7--10-10-10-7-7----10-10-10-7-7-7-7-7-7-7-7--------|
D|--------------------------------------------------------------------|
A|-5-5-5-5-5-5-5-5-5--8--8--8--5-5----8--8--8--9-9-9-9-9-9-9-9--------|
E|--------------------------------------------------------------------|
 
A5
Belki sen bulursun diye Artık son şansımsın  E|---2------2----|
                                             B|------3----3---|
                                 E5          G|----2-------2--|
Korkma ısrar yok bende Avunurum içkiyle      D|---------------|
                                             A|---------------|
                                             E|---------------|
 
 Gökdelenlerden tükürdüm dünyaya       Ben hayatım boyuncaaa  ha ha
E|--------------------------------------------------------------------|
B|--------------------------------------------------------------------|
G|-7-7-7-7-7-7-7-7-7--10-10-10-7-7----10-10-10-7-7-7-7-7--7-7--7-7----|
D|--------------------------------------------------------9-9--9-9----|
A|-5-5-5-5-5-5-5-5-5--8--8--8--5-5----8--8--8--9-9-9-9-9--9-9--9-9----|
E|--------------------------------------------------------------------|
 
   Bu yüzden kupkuru ağzıııııııııım    Bak   geçmedi  yıllarca           E5..
E|--------------------------------------------------------------------|
B|--------------------------------------------------------------------|
G|-7-7-7-7-7-7-7-7-7--10-10-10-7-7----10-10-10-7-7-7-7-7-7-7-7--------|
D|--------------------------------------------------------------------|
A|-5-5-5-5-5-5-5-5-5--8--8--8--5-5----8--8--8--9-9-9-9-9-9-9-9--------|
E|--------------------------------------------------------------------|
-