Hayko Cepkin - Geç Kaldım
Zorluk: Kolay Version: 1 Kapo: 0 İçerik: Akor
Tranpose
E-----6-10----8-----6---5-----6-10-----8--------------
B---8-------8-----8---------8--------8----------------
G-7-------7-----7-----7---7--------7------------------
D-----------------------------------------------------
A-----------------------------------------------------
E-----------------------------------------------------
 
E-----6-10----8-----6---5-----6-10-----------5-6-8----
B---8-------8-----8---------8--------8---6-8----------
G-7-------7-----7---------7--------7---8--------------
D-----------------------------------------------------
A-----------------------------------------------------
E-----------------------------------------------------
 
Gm      Cm         Gm
Ellerim güçsüz
Cm       Gm
Bileklerim ince
Cm         Gm
Tutamam ki kolundan
Cm          Gm
Kaçırayım sinsice
Cm         Gm
Gözlerim görmez
Cm         Gm
Kulaklarım duymaz
Cm          Gm
Ağzım laf yapmaz iken
F          Gm
Nerden hak ettim senii
Cm    Gm     Cm    Gm
Geç kaldım,  her anına
Cm    Gm    F     Gm
Geç kaldım,  her anına
Cm    Gm    Cm    Gm
Geç kaldım,  her anına
Cm    Gm   F
Gec kaldım,  efkârım var...
 
Solo Tekrardan...
 
Gm   Cm    Gm    Cm    Gm
Gökyüzü gibi  gözlerinin içi
Cm           Gm
Tutamam ki yıldızdan
F             Gm
Halim kaybolmuş gibiii
Cm   Gm      Cm      Gm
Sen ağlama,  ben ağlarım
Cm        Gm
Gül ki gülsün yüzüm
F           Gm
Bende biriktir seni
 
Cm    Gm     Cm    Gm
Geç kaldım,  her anına
Cm    Gm    F     Gm
Geç kaldım,  her anına
Cm    Gm    Cm    Gm
Geç kaldım,  her anına
Cm    Gm    F
Gec kaldım,  gözyaşları...
-