Gece - Bekle
Zorluk: Kolay Version: 1 Kapo: 0 İçerik: Akor
Tranpose
intro ve nakarta olan kısım:

E--------------------------------------------------------------------
B--------------------------------------------------------------------
G----------4--4--5--4-----------4-4--5-4-----------------------------
D--------2-------------2------2-----------2----0-0-2--2-5-2-5-2-5-2--    xx(A)xx
A----3--3-------------------3------------------0-0-0-----------------
E--------------------------------------------------------------------
   Kapılar hep aralık kalmış
   O çocuk seni hiç anlamamış
   Aşkım yemek yerken ağlarmış
   O çocuk seni hiç anlamamış

A5                E5
Silmeye çalışma adını sokaklarda
A5            E5      F5     E5
Zaman döndürür bizi sakın korkma

G5        E5        A5
 sabaha yanındayım
 sabaha canındayım
 sabaha yanındayım
 sabaha kanındayım

nakarttan sonra
E------------------------------------------------------------------
B------------------------------------------------------------------
G---4-5-4--------4-5-4---------------------------------------------
D---------2--------------2-0-0-2-----------------------------------
A------------------------------------------------------------------
E------------------------------------------------------------------

(A) tekrar

A5             E5          B
Bir an bile olsa seni unutmadım
A5             E5
Kendimden çıktım yola seni
B
Anladım
-