Göksel - Hasretinle Yandı Gönlüm - Tab
Zorluk: Kolay Version: 1 Kapo: 0 İçerik: Akor
Tranpose
E|--2--3--3--2--3--5--7--5--3--2--0------------------------------------------|
B|-----------------------------------3---------------------------------------|
G|---------------------------------------------------------------------------|
D|---------------------------------------------------------------------------|
A|---------------------------------------------------------------------------|
E|---------------------------------------------------------------------------|
E|--0--2--2--0--2--3--5--3--2--0-----0---------------------------------------|
B|--------------------------------3------------------------------------------|
G|---------------------------------------------------------------------------|
D|---------------------------------------------------------------------------|
A|---------------------------------------------------------------------------|
E|---------------------------------------------------------------------------|
E|-----0--0-----0--0--2--0---------------------------------------------------|
B|--3--------3--------------3--1--0------------------------------------------|
G|-----------------------------------2---------------------------------------|
D|---------------------------------------------------------------------------|
A|---------------------------------------------------------------------------|
E|---------------------------------------------------------------------------|
E|-----------------------------------0---------------------------------------|
B|--0--1--1--0--1--0--------------3-----1--0---------------------------------|
G|--------------------2------------------------------------------------------|
D|---------------------------------------------------------------------------|
A|---------------------------------------------------------------------------|
E|---------------------------------------------------------------------------|
E|--7--7--7--7--7--8--7--5--3------7--8--7--5--3------5--7--5--3--2--3-------|
B|---------------------------------------------------------------------------|
G|---------------------------------------------------------------------------|
D|---------------------------------------------------------------------------|
A|---------------------------------------------------------------------------|
E|---------------------------------------------------------------------------|
E|--2--3--3--3--3/5--5--3--2--0-------2--2--0-----------0--0-----0-----------|
B|---------------------------------3-----------3-----3--------3--------------|
G|---------------------------------------------------------------------------|
D|---------------------------------------------------------------------------|
A|---------------------------------------------------------------------------|
E|---------------------------------------------------------------------------|
E|--2--3--3--3--5--7--5--3--2--0-----0--2--2--2--3--5--3--2--0---------------|
B|--------------------------------3-----------------------------3--1---------|
G|---------------------------------------------------------------------------|
D|---------------------------------------------------------------------------|
A|---------------------------------------------------------------------------|
E|---------------------------------------------------------------------------|
E|-----0--0--0---0--2--0----------------------------------------0---------------|
B|--3---------------------3--1--0-------0--1--1--0--1--0-----3-----1--0---------|
G|---------------------------------2----------------------2---------------------|
D|------------------------------------------------------------------------------|
A|------------------------------------------------------------------------------|
E|------------------------------------------------------------------------------|
-