Gece Yolcuları - Yarım Ve Yalnız(Tab)
Zorluk: Kolay Version: 1 Kapo: 0 İçerik: Akor
Tranpose
intro:

b---------------------------------------------
g-1-3-4-8--6h5-6h5-3--3-5-6-8-10--3-4-3-1--1--
d---------------------------------------------

b---------------------------------------------
g-4-3-4-6v-3-3h4p3-3-1--3-1-3-4-1-------------
d---------------------------------------------

Hani derdin ya bir şeyler eksik
a-3-2-3-5-2--0-0----1-
e---------------3-4---

Asıl şimdi eksik kaldık yarım ve yalnız
a-2-2-3-2--2-3-2-0--1-2-0-1-0-
e-----------------------------

Beni böyle karanlığa nasıl itersin
a-3-4-3-1--3-4-2-1--4-6-4-3-5
e-----------------------------

Daha bir şey yaşamadık neden gidersen
a-3-4-6-3--4-4-3-4--2-5--3-2-0----
e-------------------------------

Zaman dursun borcum olsun gecmesin
a-4-5-4-2--4-5-4-3h6-4-3-5---
e----------------------------

Kıyamet mi bu yangın mı varsın beklesin
a-3-6-7-5-4--6-6-4--3-5-5-2-0-
e-----------------------------

Ne yağmurlarda ıslandık senle
a-6-6-6-6-6--5-6-7-5-3--
e-----------------------

Ne caddelerde koştuk elele
a-6-6-6-6-6--5-6-4-6-5----
e-------------------------

Ne okyanuslar aştık birlikte
a-8-8-8-8-8--7-9--7-9-10--------
e-------------------------------

Özledim seni
a-6-6-8-9-8--
e------------

Nerdesin nerde
a-5-6-5-6-3---
e-------------
-