Ferhat Göçer - Biri Bana Gelsin
Zorluk: Kolay Version: 1 Kapo: 0 İçerik: Akor
Tranpose
Em         F               G              F
saçmalama ne olur, çare çok nasıl gidersin?
Em           F             G              F
istediğin her şey sanki yok, değer mi dersin.
G        Am             Em           F
başkaları bilmez, görmez o nasıl bir duygu,
G        Am           Em  F           Em
al elini kalbime bir koy, işte gerçek bu.
 
Em             Am
her yer soğuk hep karanlık,
G            F
kendi kendime tarifsiz.
Em             Am
ayrılmamız çok gereksiz,
G             F
şimdi uzaktan sebepsiz.
 
[nakarat]
Em           F               G
biri bana gelsin, o da sensin,
               F
beni kırmış olsan da..
Em           F               G
ikimiz de aşık, bir tek farkla;
             F7         Em
benimki senden biraz fazla.
 
--- TAB ---
 
biri bana gelsin oda sensin beni kırmış olsanda
E|---------------9-8-6-------------------
B|-6-7-9-9--6-7--------9--9-9-11-9-7-6-7------------
G|------------------------------------
D|------------------------------------
A|------------------------------------
E|------------------------------------
 
ikimizde aşık bi tek farkla benimki senden biraz fazla
E|---------------9-8-6-------------------
B|-6-7-9-9--6-7--------9--9-9-11-9-7--7-9-7-6---------
G|------------------------------------
D|------------------------------------
A|------------------------------------
-