Eagles - Greeks Dont Want No Freaks
Zorluk: Kolay Version: 1 Kapo: 0 İçerik: Akor
Tranpose
The Greeks Don't Want No Freaks - by the Eagles
From the Album “The Long Run” - 1979

CAPO 3

[RIFF]  (relative to CAPO)
    A       G           A         A       G           A
e|-------------------|---------|-------------------|---------|
B|-------------------|---------|-------------------|---------|
G|-------------------|---------|-------------------|---------|
D|--------2----------|---------|--------2----------|---------|
A|------4-------2-5--|---------|------4-------2-5--|---------|
E|--5-5-----3-3------|--5------|--5-5-----3-3------|--5------|

    A       G           A       G           A       G           A
e|-------------------|-------------------|-------------------|---------|
B|-------------------|-------------------|-------------------|---------|
G|-------------------|-------------------|-------------------|---------|
D|--------2----------|--------2----------|--------2----------|---------|
A|------4-------2-5--|------4-------2-5--|------4-------2-5--|---------|
E|--5-5-----3-3------|--5-5-----3-3------|--5-5-----3-3------|--5------|

[INTRO]
A G A   A G A   A G A G A G A

[VERSE]
          A        G        A
There was beer all over the dance floor
        A                D          A
And the band was playin' rhythm and blues
        A                G          A            G
You got down and did the gator, and half an hour later
         D                     E
You were barfin' all over your girlfriend's shoes


[CHORUS]
        A            D       A     D
But the Greeks don't want no freaks
    A            D       A     D
The Greeks don't want no freaks
     G            D             A
Just put a little smile on them rosy cheeks
           A            G              E ///////
'Cause the Greeks don't want no freaks


[INTERLUDE]
A G A          A G A   A G A G A G A
      GATOR!!


[VERSE]
            A             G          A
She was the pride and the passion of Dixie
        A                D         A
She did exactly what her Daddy had planned
        A              G       A              G
She was perfect little sister, until somebody missed her
         D                                E
And they found her in the bushes with the boys in the band


[CHORUS]
        A            D       A     D
But the Greeks don't want no freaks
        A            D       A     D
No, the Greeks don't want no freaks
         G         D             A
So put a great big smile on them rosy cheeks
           A            G              E ///////
'Cause the Greeks don't want no freaks


[CHORUS]
        A            D       A      D
No, the Greeks don't want no freaks
          A            D       A      D
Said, the Greeks don't want no freaks
              G       D             A
Just put that monster smile on them rosy cheeks
           A            G       A
'Cause the Greeks don't want no freaks
        A            G       A
No, the Greeks don't want no freaks


[OUTRO]
A    G    A
Ahhh Ahhh Ahhh
A    G    A
Ahhh Ahhh Ahhh
A    G    A
Ahhh Ahhh Ahhh

Etc.
-