Eagles - Get Over It - Ukulele
Zorluk: Kolay Version: 1 Kapo: 0 İçerik: Akor
Tranpose
Tuning: G C E A

Chords
Barred D :  55777x        D5 : x577xx     F5 : 133xxx
C5 : 8-10-10-x-x          A5 : 577xxx     E5 : x799xx
 
Intro Solo
+++++++
---------------------------------------------|
---------------------------------------------|
--------------------10-13--13--10~/----------|
--------5s9---12-----------------------------|
---------------------------------------------|
---------------------------------------------|
 
-------------------------------------------------|
-------------------------------------------------|
-----------10-13-13b15r---12--10-----------------|
---11s12---------------------------9s12--12--12--|
-------------------------------------------------|
-------------------------------------------------|
 
--------------------------------------------|
--------------------------------------------|
-------13--10-------------------------------|
-----------------12--9----------------------|
--------------------------12--9-------------|
----------------------------------12--9-----|
 
Main Riff/Chorus
+++++++++++++
You can play it by sliding while holding the Barred D-Shape..much easier this way
     D
-------------------------------------------------|
---7s10~--------7s10~------7s10~-----------------|    Make a little Vibrato
-7-7s9~-----7---7s9~----7--7s9~---7---14---------|(stop)-    at the end of the slide
-7-7s9~-----7---7s9~----7--7s9~---7---14(stop)---|
-5----------5-----------5---------5--------------|
-5----------5-----------5---------5--------------|
 
Verse
++++
Listen to the song to figure out the strumming pattern,it's simple just alternating
between D/D7-G/G7-A/A7
-----------------3-3--3-3------5-5-5-5---------------|
-----------------7-3--7-3------8-5-8-5---------------|
---7-5-7-5-------4-4--4-4------6-6-6-6---------------|
---7-7-7-7-------------------------------------------|
---5-5-5-5-------------------------------------------|
-----------------------------------------------------|
 
D/D7
I turn on the tube
What do I see
A whole lotta people
Cryin' Don't blame me,They point their
Crooked little fingers
At everybody else
Spend all of their time
Feeling Sorry for themselves
 
G/G7
Victim of this
Victim of that
 
A/A7
Your momma's too thin and
Your daddy's too fat!
 
Chours
+++++
D5
Get over it  (The Slide in the Intro)
F5
Get over it  (The Slide again)
G5
All this whinin', cryin' (One more time)
Pitchin' a fit
D5
Get over it
Get over it
 
First Solo
+++++++
Second Guitar can Play Power Chords
D5                                                   F5
---------------------------------------------------------------|
---------------------------------------------------------------|
-------------9--12-----9--9s12-12-14--9-12-14-9-12-14-9b12-----|
---------------------12----------------------------------------|
---------------------------------------------------------------|
---------------------------------------------------------------|
 G5                                                  A5                                      D5
--------------------------------------------15--17--15-------------------|
-----------------------------------------16-------------16-----12-16-----|
----10--8------10-8-----10-8----10-8s15--------------------15------------|
--9--------9-9------9-9-------9------------------------------------------|
-------------------------------------------------------------------------|
-------------------------------------------------------------------------|
 
Second Verse
++++++++++
D/D7
You said you haven't been the same
Since you had your little crash
But you might feel better
If they gave you some cash
The more I think about it
Old Billy was right
Let's kill all the lawyers
Kill 'em tonight!
G7/G
Don't wanna work
You want to live like a king
A7/A
But the big bad world
Doesn't owe you a thing
 
Repeat Chours
 
Second Solo
+++++++++
Same Power chords Progression
---------------------------------------------------------------|
---------------------------------------------------------------|
----------------------------------------12s13b-13b-12----------|
--9s16p--12s9-9s12--15b16-15s12--9s12------------------9s12----|
---------------------------------------------------------------|
---------------------------------------------------------------|
 
--------------------------------------------------------|
--19-16-----15b16---------15-15---15-15----15-15--------|
---------17--------------------17-------17-------17-----|
--------------------12s15-------------------------------|
--------------------------------------------------------|
--------------------------------------------------------|
 
------------------------------------------------------------|
-15-----15-----15-----15-----15-20--------------------------|
-----17-----17-----17-----17--------------------------------|
------------------------------------12s15-12----------------|
------------------------------------------------------------|
------------------------------------------------------------|
 
---------------------------------------------------|
-----15-15------15-----20--------------------------|
-17----------17-----17-----------------------------|
------------------------------12s15-12-------------|
---------------------------------------------------|
---------------------------------------------------|
 
------------------------------------------------------------|
--20b21r20-16-------------------21----21-20-----------------|
-----------------15hp17--115s7--17-17-17-17-----------------|
----------------------------------------------3s5--3s5------|
----------------------------------------------3s5--3s5------|
------------------------------------------------------------|
 
Bridge
+++++
C5                                                                              C5/D5
----------------------------------------------------------------------|
----------------------------------------------------------------------|
----------------------------------------------------------------------|
-----------10-------------------------------------------10s12--12-12--|
-----------10-------------------------------------------10s12--12-12--|
-----------8--------------------------------------------8s10---10-10--|
It's like going to confession every time I hear you Speak
-----------------------------------------------------------|
-----------------------------------------------------------|
-----------------------------------------------------------|
----------5------------------------------------------------|
----------5------------------------------------------------|
----------3------------------------------------------------|
You're making the most of your losing streak
------------------------------------------------------|
------------------------------------------------------|
--------------------------------9---------------------|
---7----------------------------9---------------------|
---7----------------------------7---------------------|
---5--------------------------------------------------|
   Some call it sick I call it weak
 
Verse :
+++++
You're draggin' around
Like a ball and chain
You wallow in the guilt
You wallow in the pain
You wave it like a flag
You wear it like a crown
Got your mind in the gutter
Bringin' everybody down
 
You bitch about the present
Blame it on the past
 
I'd like to find you in a child
And kick it's little ass!
 
Outro :
+++++
Same Power Chords Progression
-----------------------------------------------------------|
---20-20-15-13-15--------------15-15s13--------------------|
---19-19---------------------14---------------14-----------|
------------------------12-15----------------------15------|
-----------------------------------------------------------|
-----------------------------------------------------------|
 
-------------------------------------------------------------|
--------------15-17b19~--17hp19-17---------------------------|
----------14-----------------------19----19-17---------------|
------15---------------------------------------19-16---------|
-------------------------------------------------------------|
-------------------------------------------------------------|
 
                          Slide Up
----------------20b--20-17---------------20s-----------|
----------------19b----------19----------19s-----------|
----------17---------------------17s19-----------------|
-16-19-------------------------------------------------|
-------------------------------------------------------|
-------------------------------------------------------|
 
---------------------------------------------------------|
-----------18p15--13-15-13-----13------------------------|
--15h17--------------------15-----15--15p13--------------|
---------------------------------------------15----------|
---------------------------------------------------------|
---------------------------------------------------------|
 
----------------------------------------------------|
--18-15----18-15------18-15-----18-15---------------|
--------17---------17--------17---------17----------|
----------------------------------------------------|
----------------------------------------------------|
----------------------------------------------------|
 
----------------------------------------------------|
-----18-15------------------------------------------|
------------17-15hp17-13------15-13-----------------|
--------------------------15----------15---12~------|
-------------------------------------------12~------|
-------------------------------------------10~------|
-