Duman - Bu Akşam
Zorluk: Kolay Version: 1 Kapo: 0 İçerik: Akor
Tranpose
INTRO
e|--------------------------------------------|
B|----7-5-3-5-2-3-5-2-----7-5-3-5-2-3-5-5-----|
G|--4-----------------4-4---------------------|
D|--------------------------------------------|
A|--------------------------------------------|
E|--------------------------------------------|

e|--------------------------------------------|
B|----7-5-3-5-2-3-5-2-----3-2---3-2-----------|
G|--4-----------------4-4-----4-----4-4-------|
D|--------------------------------------------|
A|--------------------------------------------|
E|--------------------------------------------|


Bm      G      A      Bm
Kendime geldim geleli dostlar
   G      A
Olamam kimseye düşman
Bm    G       A       Bm
Bi şüphem yok kefenim sağlam
G  A       Bm
İçerim ben bu akşam

	INTRO

Bm      G      A      Bm
Sesleri duydum duyalı dostlar
     G      A
Yola çıktım yeni baştan
Bm  G      A       Bm
Acelem yok hedefim sağlam
G  A       Bm
İçerim ben bu akşam (x2)
G  A
İçerim ben
          Bm   G   Em   A
Ben burda bu akşam (x4)

İçerim  ben

	INTRO - SOLO

Bm      G      A      Bm
Sizleri gördüm göreli dostlar
      G      A
Hemen hergün bana bayram
Bm  G       A       Bm
Yarınım yok sevenim sağlam
G  A       Bm
İçerim ben bu akşam (x2)
G  A
İçerim ben
          Bm   G   Em   A
Ben burda bu akşam (x4)
           Bm   G   Em   A
İçerim ben bu akşam
          Bm   G   Em   A
Ben burda bu akşam (x3)

İçerim ben
-