Doğa İçin Çal - Çemberimde Gül Oya - Tab
Zorluk: Kolay Version: 1 Kapo: 0 İçerik: Akor
Tranpose
E:-------------------6--6-6-5-4-5-1---------------
 B:---3-3-4-6-4-3-3--------------------------------
 G:------------------------------------------------
 D:------------------------------------------------
 A:------------------------------------------------
 E:------------------------------------------------
     Çemberimde gül oya / gülmedim doya doya,
 E:-3-3-6-6-5-3-6--5-5-3-1-5-5-5--3--3-6-5-3-1-----
 B:-------------------------------------------4-3--
 G:------------------------------------------------
 D:------------------------------------------------
 A:------------------------------------------------
 E:------------------------------------------------
 Dertlere karıyorum / Günleri saya saya / Al beni kıyamam seni,
 E:3-3-6-6-5-3-6--5-5-3-1-5-5-5--3--3-6-5-3-1-----
 B:------------------------------------------4-3--
 G:-----------------------------------------------
 D:-----------------------------------------------
 A:-----------------------------------------------
 E:-----------------------------------------------
 Dertlere karıyorum / Günleri saya saya / Al beni kıyamam seni....
-