Athena - Hep Aynı
Zorluk: Kolay Version: 1 Kapo: 0 İçerik: Akor
Tranpose
F         C     Bb       C
 E||---------------------------------------|
 B||---------------------------------------|
 G||---------------------------------------|
 D||-----5-7-5---5----------5-7-5----------|
 A||-8-8-------8--------8-8-------8-7--5---|
 E||------------------------------------8--|
 
    F         C      Bb       C
 E||----------------------------------------|
 B||----------------------------------------|
 G||------------------------5-555-----------|
 D||------5-7-5---8-8-7-5---------8-7-5-5---|
 A||-8-8--------8---------8-----------------|
 E||----------------------------------------|
 
   F           C        Bb          C  
 Zamani Hep yalan belki bostur olanlar,
         Dm    C          Bb           C 
 Yakinmak cok sacma cünkü yoktur kacanlar,
   F           C        Bb            C      Dm
 Uzaksin kendine icinde var bir degisme ulassam
       C            Bb       C
 Zaten sormazdim ki oda nerede.
 
    F       F    Dm           C           A     
    Ben kendimle olmek varken sen hep burada
         Bb        C         F        A 
 A  Hep ayni, Hep ayni, Hep ayni hep ayni
    Bb     C            F         A   Bb  C
    Sen-le birlikte hep ayni, hep ayni oooo
 
         -giris solo tekrar-
 
    F              C          Bb          C
 Neden hep sormak var cevabi nerde kimde var,
        Dm      C          Bb       C
 Dogrusu bence yokki hepsi ayni rüyalar.
   F            C    Bb            C
 Bakarsan bir eger kayarsın iki değer 
        Dm       C             Bb          C
 Dogrusu, burdan cikmak dersen olki cik benden
 
-A tekrar-
                           
-solo-
 
-A tekrar-
 
-giris solo tekrar-
-